  0
SECTION
  2
HEADER
  9
$ACADVER
  1
AC1015
  9
$ACADMAINTVER
 70
     6
  9
$DWGCODEPAGE
  3
ANSI_1254
  9
$INSBASE
 10
0.0
 20
0.0
 30
0.0
  9
$EXTMIN
 10
0.0
 20
0.0
 30
0.0
  9
$EXTMAX
 10
279.4
 20
215.9
 30
0.0
  9
$LIMMIN
 10
0.0
 20
0.0
  9
$LIMMAX
 10
279.4
 20
215.9
  9
$ORTHOMODE
 70
     0
  9
$REGENMODE
 70
     1
  9
$FILLMODE
 70
     1
  9
$QTEXTMODE
 70
     0
  9
$MIRRTEXT
 70
     1
  9
$LTSCALE
 40
1.0
  9
$ATTMODE
 70
     1
  9
$TEXTSIZE
 40
3.5
  9
$TRACEWID
 40
1.0
  9
$TEXTSTYLE
  7
Standard
  9
$CLAYER
  8
0
  9
$CELTYPE
  6
ByLayer
  9
$CECOLOR
 62
   256
  9
$CELTSCALE
 40
1.0
  9
$DISPSILH
 70
     0
  9
$DIMSCALE
 40
1.0
  9
$DIMASZ
 40
3.5
  9
$DIMEXO
 40
1.0
  9
$DIMDLI
 40
3.75
  9
$DIMRND
 40
0.0
  9
$DIMDLE
 40
0.0
  9
$DIMEXE
 40
1.0
  9
$DIMTP
 40
0.0
  9
$DIMTM
 40
0.0
  9
$DIMTXT
 40
3.5
  9
$DIMCEN
 40
2.5
  9
$DIMTSZ
 40
0.0
  9
$DIMTOL
 70
     0
  9
$DIMLIM
 70
     0
  9
$DIMTIH
 70
     1
  9
$DIMTOH
 70
     1
  9
$DIMSE1
 70
     0
  9
$DIMSE2
 70
     0
  9
$DIMTAD
 70
     1
  9
$DIMZIN
 70
     0
  9
$DIMBLK
  1

  9
$DIMASO
 70
     1
  9
$DIMSHO
 70
     1
  9
$DIMPOST
  1

  9
$DIMAPOST
  1

  9
$DIMALT
 70
     0
  9
$DIMALTD
 70
     3
  9
$DIMALTF
 40
0.0393700787
  9
$DIMLFAC
 40
1.0
  9
$DIMTOFL
 70
     1
  9
$DIMTVP
 40
0.0
  9
$DIMTIX
 70
     0
  9
$DIMSOXD
 70
     0
  9
$DIMSAH
 70
     0
  9
$DIMBLK1
  1

  9
$DIMBLK2
  1

  9
$DIMSTYLE
  2
ISO-25
  9
$DIMCLRD
 70
     0
  9
$DIMCLRE
 70
     0
  9
$DIMCLRT
 70
     0
  9
$DIMTFAC
 40
1.0
  9
$DIMGAP
 40
1.524
  9
$DIMJUST
 70
     0
  9
$DIMSD1
 70
     0
  9
$DIMSD2
 70
     0
  9
$DIMTOLJ
 70
     0
  9
$DIMTZIN
 70
     0
  9
$DIMALTZ
 70
     0
  9
$DIMALTTZ
 70
     0
  9
$DIMUPT
 70
     0
  9
$DIMDEC
 70
     2
  9
$DIMTDEC
 70
     2
  9
$DIMALTU
 70
     2
  9
$DIMALTTD
 70
     3
  9
$DIMTXSTY
  7
Standard
  9
$DIMAUNIT
 70
     0
  9
$DIMADEC
 70
     2
  9
$DIMALTRND
 40
0.0
  9
$DIMAZIN
 70
     0
  9
$DIMDSEP
 70
    44
  9
$DIMATFIT
 70
     3
  9
$DIMFRAC
 70
     0
  9
$DIMLDRBLK
  1

  9
$DIMLUNIT
 70
     2
  9
$DIMLWD
 70
    -2
  9
$DIMLWE
 70
    -2
  9
$DIMTMOVE
 70
     0
  9
$LUNITS
 70
     2
  9
$LUPREC
 70
     2
  9
$SKETCHINC
 40
1.0
  9
$FILLETRAD
 40
10.0
  9
$AUNITS
 70
     0
  9
$AUPREC
 70
     2
  9
$MENU
  1
.
  9
$ELEVATION
 40
0.0
  9
$PELEVATION
 40
0.0
  9
$THICKNESS
 40
0.0
  9
$LIMCHECK
 70
     0
  9
$CHAMFERA
 40
0.0
  9
$CHAMFERB
 40
0.0
  9
$CHAMFERC
 40
0.0
  9
$CHAMFERD
 40
0.0
  9
$SKPOLY
 70
     0
  9
$TDCREATE
 40
2459935.709702916
  9
$TDUCREATE
 40
2459935.584702916
  9
$TDUPDATE
 40
2459935.709703102
  9
$TDUUPDATE
 40
2459935.584703102
  9
$TDINDWG
 40
0.0000000116
  9
$TDUSRTIMER
 40
0.0000000116
  9
$USRTIMER
 70
     1
  9
$ANGBASE
 50
0.0
  9
$ANGDIR
 70
     0
  9
$PDMODE
 70
     0
  9
$PDSIZE
 40
-1.0
  9
$PLINEWID
 40
0.0
  9
$SPLFRAME
 70
     0
  9
$SPLINETYPE
 70
     6
  9
$SPLINESEGS
 70
     8
  9
$HANDSEED
  5
F5
  9
$SURFTAB1
 70
     6
  9
$SURFTAB2
 70
     6
  9
$SURFTYPE
 70
     6
  9
$SURFU
 70
     6
  9
$SURFV
 70
     6
  9
$UCSBASE
  2

  9
$UCSNAME
  2

  9
$UCSORG
 10
0.0
 20
0.0
 30
0.0
  9
$UCSXDIR
 10
1.0
 20
0.0
 30
0.0
  9
$UCSYDIR
 10
0.0
 20
1.0
 30
0.0
  9
$UCSORTHOREF
  2

  9
$UCSORTHOVIEW
 70
     0
  9
$UCSORGTOP
 10
0.0
 20
0.0
 30
0.0
  9
$UCSORGBOTTOM
 10
0.0
 20
0.0
 30
0.0
  9
$UCSORGLEFT
 10
0.0
 20
0.0
 30
0.0
  9
$UCSORGRIGHT
 10
0.0
 20
0.0
 30
0.0
  9
$UCSORGFRONT
 10
0.0
 20
0.0
 30
0.0
  9
$UCSORGBACK
 10
0.0
 20
0.0
 30
0.0
  9
$PUCSBASE
  2

  9
$PUCSNAME
  2

  9
$PUCSORG
 10
0.0
 20
0.0
 30
0.0
  9
$PUCSXDIR
 10
1.0
 20
0.0
 30
0.0
  9
$PUCSYDIR
 10
0.0
 20
1.0
 30
0.0
  9
$PUCSORTHOREF
  2

  9
$PUCSORTHOVIEW
 70
     0
  9
$PUCSORGTOP
 10
0.0
 20
0.0
 30
0.0
  9
$PUCSORGBOTTOM
 10
0.0
 20
0.0
 30
0.0
  9
$PUCSORGLEFT
 10
0.0
 20
0.0
 30
0.0
  9
$PUCSORGRIGHT
 10
0.0
 20
0.0
 30
0.0
  9
$PUCSORGFRONT
 10
0.0
 20
0.0
 30
0.0
  9
$PUCSORGBACK
 10
0.0
 20
0.0
 30
0.0
  9
$USERI1
 70
     0
  9
$USERI2
 70
     0
  9
$USERI3
 70
     0
  9
$USERI4
 70
     0
  9
$USERI5
 70
     0
  9
$USERR1
 40
0.0
  9
$USERR2
 40
0.0
  9
$USERR3
 40
0.0
  9
$USERR4
 40
0.0
  9
$USERR5
 40
0.0
  9
$WORLDVIEW
 70
     1
  9
$SHADEDGE
 70
     3
  9
$SHADEDIF
 70
    70
  9
$TILEMODE
 70
     1
  9
$MAXACTVP
 70
    64
  9
$PINSBASE
 10
0.0
 20
0.0
 30
0.0
  9
$PLIMCHECK
 70
     0
  9
$PEXTMIN
 10
1.0000000000E+20
 20
1.0000000000E+20
 30
1.0000000000E+20
  9
$PEXTMAX
 10
-1.0000000000E+20
 20
-1.0000000000E+20
 30
-1.0000000000E+20
  9
$PLIMMIN
 10
0.0
 20
0.0
  9
$PLIMMAX
 10
420.0
 20
297.0
  9
$UNITMODE
 70
     0
  9
$VISRETAIN
 70
     1
  9
$PLINEGEN
 70
     0
  9
$PSLTSCALE
 70
     1
  9
$TREEDEPTH
 70
  3020
  9
$CMLSTYLE
  2
Standard
  9
$CMLJUST
 70
     0
  9
$CMLSCALE
 40
20.0
  9
$PROXYGRAPHICS
 70
     1
  9
$MEASUREMENT
 70
     1
  9
$CELWEIGHT
370
    -1
  9
$ENDCAPS
280
     0
  9
$JOINSTYLE
280
     0
  9
$LWDISPLAY
290
     1
  9
$INSUNITS
 70
     4
  9
$HYPERLINKBASE
  1

  9
$STYLESHEET
  1

  9
$XEDIT
290
     1
  9
$CEPSNTYPE
380
     0
  9
$PSTYLEMODE
290
     1
  9
$FINGERPRINTGUID
  2
{85381981-96b0-4c32-9a92-afbd207fb765}
  9
$VERSIONGUID
  2
{FAEB1C32-E019-11D5-929B-00C0DF256EC4}
  9
$EXTNAMES
290
     1
  9
$PSVPSCALE
 40
0.0
  9
$OLESTARTUP
290
     0
  0
ENDSEC
  0
SECTION
  2
CLASSES
  0
CLASS
  1
ACDBDICTIONARYWDFLT
  2
AcDbDictionaryWithDefault
  3
ObjectDBX Classes
 90
        0
280
     0
281
     0
  0
CLASS
  1
VISUALSTYLE
  2
AcDbVisualStyle
  3
ObjectDBX Classes
 90
     4095
280
     0
281
     0
  0
CLASS
  1
MATERIAL
  2
AcDbMaterial
  3
ObjectDBX Classes
 90
     1153
280
     0
281
     0
  0
CLASS
  1
SCALE
  2
AcDbScale
  3
ObjectDBX Classes
 90
     1153
280
     0
281
     0
  0
CLASS
  1
TABLESTYLE
  2
AcDbTableStyle
  3
ObjectDBX Classes
 90
     4095
280
     0
281
     0
  0
CLASS
  1
MLEADERSTYLE
  2
AcDbMLeaderStyle
  3
ACDB_MLEADERSTYLE_CLASS
 90
     4095
280
     0
281
     0
  0
CLASS
  1
SUN
  2
AcDbSun
  3
SCENEOE
 90
     1153
280
     0
281
     0
  0
CLASS
  1
ACDBPLACEHOLDER
  2
AcDbPlaceHolder
  3
ObjectDBX Classes
 90
        0
280
     0
281
     0
  0
CLASS
  1
LAYOUT
  2
AcDbLayout
  3
ObjectDBX Classes
 90
        0
280
     0
281
     0
  0
ENDSEC
  0
SECTION
  2
TABLES
  0
TABLE
  2
VPORT
  5
8
330
0
100
AcDbSymbolTable
 70
     1
  0
VPORT
  5
29
330
8
100
AcDbSymbolTableRecord
100
AcDbViewportTableRecord
  2
*Active
 70
     0
 10
0.0
 20
0.0
 11
1.0
 21
1.0
 12
139.7
 22
107.95
 13
0.0
 23
0.0
 14
10.0
 24
10.0
 15
10.0
 25
10.0
 16
0.0
 26
0.0
 36
1.0
 17
0.0
 27
0.0
 37
0.0
 40
215.9
 41
1.2941176471
 42
50.0
 43
0.0
 44
0.0
 50
0.0
 51
0.0
 71
     0
 72
  2000
 73
     1
 74
     3
 75
     0
 76
     0
 77
     0
 78
     0
281
     0
 65
     1
110
0.0
120
0.0
130
0.0
111
1.0
121
0.0
131
0.0
112
0.0
122
1.0
132
0.0
 79
     0
146
0.0
  0
ENDTAB
  0
TABLE
  2
LTYPE
  5
5
330
0
100
AcDbSymbolTable
 70
     6
  0
LTYPE
  5
14
330
5
100
AcDbSymbolTableRecord
100
AcDbLinetypeTableRecord
  2
ByBlock
 70
     0
  3

 72
    65
 73
     0
 40
0.0
  0
LTYPE
  5
15
330
5
100
AcDbSymbolTableRecord
100
AcDbLinetypeTableRecord
  2
ByLayer
 70
     0
  3

 72
    65
 73
     0
 40
0.0
  0
LTYPE
  5
16
330
5
100
AcDbSymbolTableRecord
100
AcDbLinetypeTableRecord
  2
Continuous
 70
     0
  3
Solid line
 72
    65
 73
     0
 40
0.0
  0
LTYPE
  5
6E
330
5
100
AcDbSymbolTableRecord
100
AcDbLinetypeTableRecord
  2
HIDDEN
 70
     0
  3
Hidden __ __ __ __ __ __ __ __ __ __ __ __ __ __
 72
    65
 73
     2
 40
1.905
 49
1.27
 74
     0
 49
-0.635
 74
     0
  0
LTYPE
  5
6F
330
5
100
AcDbSymbolTableRecord
100
AcDbLinetypeTableRecord
  2
PHANTOM
 70
     0
  3
Phantom ______  __  __  ______  __  __  ______
 72
    65
 73
     6
 40
12.7
 49
6.35
 74
     0
 49
-1.27
 74
     0
 49
1.27
 74
     0
 49
-1.27
 74
     0
 49
1.27
 74
     0
 49
-1.27
 74
     0
  0
LTYPE
  5
70
330
5
100
AcDbSymbolTableRecord
100
AcDbLinetypeTableRecord
  2
CENTER
 70
     0
  3
Center ____ _ ____ _ ____ _ ____ _ ____ _ ____
 72
    65
 73
     4
 40
10.16
 49
6.35
 74
     0
 49
-1.27
 74
     0
 49
1.27
 74
     0
 49
-1.27
 74
     0
  0
LTYPE
  5
71
330
5
100
AcDbSymbolTableRecord
100
AcDbLinetypeTableRecord
  2
CENTERX2
 70
     0
  3
Center (2x) ________  __  ________  __  _____
 72
    65
 73
     4
 40
20.32
 49
12.7
 74
     0
 49
-2.54
 74
     0
 49
2.54
 74
     0
 49
-2.54
 74
     0
  0
LTYPE
  5
72
330
5
100
AcDbSymbolTableRecord
100
AcDbLinetypeTableRecord
  2
DOT2
 70
     0
  3
Dot (.5x) ........................................
 72
    65
 73
     2
 40
0.635
 49
0.0
 74
     0
 49
-0.635
 74
     0
  0
ENDTAB
  0
TABLE
  2
LAYER
  5
2
330
0
100
AcDbSymbolTable
 70
    17
  0
LAYER
  5
10
330
2
100
AcDbSymbolTableRecord
100
AcDbLayerTableRecord
  2
0
 70
     0
 62
     7
  6
Continuous
370
    -3
390
F
  0
LAYER
  5
73
330
2
100
AcDbSymbolTableRecord
100
AcDbLayerTableRecord
  2
FORMAT
 70
     0
 62
     7
  6
Continuous
370
    -3
390
F
  0
LAYER
  5
74
330
2
100
AcDbSymbolTableRecord
100
AcDbLayerTableRecord
  2
YARDIMCI_GEOMETRI
 70
     0
 62
    -6
  6
Continuous
290
     0
370
    -3
390
F
  0
LAYER
  5
75
330
2
100
AcDbSymbolTableRecord
100
AcDbLayerTableRecord
  2
SAYFA_CERCEVESI
 70
     0
 62
     7
  6
Continuous
370
    25
390
F
  0
LAYER
  5
76
330
2
100
AcDbSymbolTableRecord
100
AcDbLayerTableRecord
  2
ANTET
 70
     0
 62
     7
  6
Continuous
370
    -3
390
F
  0
LAYER
  5
77
330
2
100
AcDbSymbolTableRecord
100
AcDbLayerTableRecord
  2
OLCU
 70
     0
 62
   150
  6
Continuous
370
    -3
390
F
  0
LAYER
  5
78
330
2
100
AcDbSymbolTableRecord
100
AcDbLayerTableRecord
  2
METIN
 70
     0
 62
    96
  6
Continuous
370
    -3
390
F
  0
LAYER
  5
79
330
2
100
AcDbSymbolTableRecord
100
AcDbLayerTableRecord
  2
BALON
 70
     0
 62
     5
  6
Continuous
370
    -3
390
F
  0
LAYER
  5
7A
330
2
100
AcDbSymbolTableRecord
100
AcDbLayerTableRecord
  2
VURGU
 70
     0
 62
     7
  6
Continuous
370
    -3
390
F
  0
LAYER
  5
7B
330
2
100
AcDbSymbolTableRecord
100
AcDbLayerTableRecord
  2
SILIK
 70
     0
 62
     7
  6
Continuous
370
    -3
390
F
  0
LAYER
  5
7C
330
2
100
AcDbSymbolTableRecord
100
AcDbLayerTableRecord
  2
MODEL
 70
     0
 62
     7
  6
Continuous
370
    -3
390
F
  0
LAYER
  5
7D
330
2
100
AcDbSymbolTableRecord
100
AcDbLayerTableRecord
  2
DETAYLANDıRMA
 70
     0
 62
   190
  6
Continuous
370
    -3
390
F
  0
LAYER
  5
7E
330
2
100
AcDbSymbolTableRecord
100
AcDbLayerTableRecord
  2
TOLERANS
 70
     0
 62
   230
  6
Continuous
370
    -3
390
F
  0
LAYER
  5
7F
330
2
100
AcDbSymbolTableRecord
100
AcDbLayerTableRecord
  2
MERKEZ_CIZGILERI
 70
     0
 62
    30
  6
Continuous
370
    -3
390
F
  0
LAYER
  5
80
330
2
100
AcDbSymbolTableRecord
100
AcDbLayerTableRecord
  2
KESIT-DETAY_CIZGILERI
 70
     0
 62
     7
  6
Continuous
370
    -3
390
F
  0
LAYER
  5
81
330
2
100
AcDbSymbolTableRecord
100
AcDbLayerTableRecord
  2
\U+041E\U+0421\U+0415\U+0412\U+042B\U+0415
 70
     0
 62
     7
  6
Continuous
370
    -3
390
F
  0
LAYER
  5
82
330
2
100
AcDbSymbolTableRecord
100
AcDbLayerTableRecord
  2
\U+0412\U+041E\U+0414\U+042F\U+041D\U+042B\U+0415_\U+0417\U+041D\U+0410\U+041A\U+0418
 70
     0
 62
    11
  6
Continuous
370
    -3
390
F
  0
ENDTAB
  0
TABLE
  2
STYLE
  5
3
330
0
100
AcDbSymbolTable
 70
     1
  0
STYLE
  5
11
330
3
100
AcDbSymbolTableRecord
100
AcDbTextStyleTableRecord
  2
Standard
 70
     0
 40
0.0
 41
1.0
 50
0.0
 71
     0
 42
3.5
  3
txt
  4

  0
ENDTAB
  0
TABLE
  2
VIEW
  5
6
330
0
100
AcDbSymbolTable
 70
     0
  0
ENDTAB
  0
TABLE
  2
UCS
  5
7
330
0
100
AcDbSymbolTable
 70
     0
  0
ENDTAB
  0
TABLE
  2
APPID
  5
9
330
0
100
AcDbSymbolTable
 70
     1
  0
APPID
  5
12
330
9
100
AcDbSymbolTableRecord
100
AcDbRegAppTableRecord
  2
ACAD
 70
     0
  0
ENDTAB
  0
TABLE
  2
DIMSTYLE
  5
A
330
0
100
AcDbSymbolTable
 70
     1
100
AcDbDimStyleTable
  0
DIMSTYLE
105
27
330
A
100
AcDbSymbolTableRecord
100
AcDbDimStyleTableRecord
  2
ISO-25
 70
     0
 41
2.5
 42
0.625
 43
3.75
 44
1.25
 73
     0
 74
     0
 77
     1
 78
     8
140
2.5
141
2.5
143
0.0393700787
147
0.625
171
     3
172
     1
178
     0
271
     2
272
     2
274
     3
278
    44
283
     0
284
     8
340
11
  0
ENDTAB
  0
TABLE
  2
BLOCK_RECORD
  5
1
330
0
100
AcDbSymbolTable
 70
     2
  0
BLOCK_RECORD
  5
1F
330
1
100
AcDbSymbolTableRecord
100
AcDbBlockTableRecord
  2
*Model_Space
340
22
  0
BLOCK_RECORD
  5
1B
330
1
100
AcDbSymbolTableRecord
100
AcDbBlockTableRecord
  2
*Paper_Space
340
1E
  0
BLOCK_RECORD
  5
23
330
1
100
AcDbSymbolTableRecord
100
AcDbBlockTableRecord
  2
*Paper_Space0
340
26
  0
BLOCK_RECORD
  5
88
330
1
100
AcDbSymbolTableRecord
100
AcDbBlockTableRecord
  2
SW_CENTERMARKSYMBOL_0
340
0
102
{BLKREFS
331
93
102
}
  0
ENDTAB
  0
ENDSEC
  0
SECTION
  2
BLOCKS
  0
BLOCK
  5
20
330
1F
100
AcDbEntity
  8
0
100
AcDbBlockBegin
  2
*Model_Space
 70
     0
 10
0.0
 20
0.0
 30
0.0
  3
*Model_Space
  1

  0
ENDBLK
  5
21
330
1F
100
AcDbEntity
  8
0
100
AcDbBlockEnd
  0
BLOCK
  5
1C
330
1B
100
AcDbEntity
 67
     1
  8
0
100
AcDbBlockBegin
  2
*Paper_Space
 70
     0
 10
0.0
 20
0.0
 30
0.0
  3
*Paper_Space
  1

  0
ENDBLK
  5
1D
330
1B
100
AcDbEntity
 67
     1
  8
0
100
AcDbBlockEnd
  0
BLOCK
  5
24
330
23
100
AcDbEntity
  8
0
100
AcDbBlockBegin
  2
*Paper_Space0
 70
     0
 10
0.0
 20
0.0
 30
0.0
  3
*Paper_Space0
  1

  0
ENDBLK
  5
25
330
23
100
AcDbEntity
  8
0
100
AcDbBlockEnd
  0
BLOCK
  5
89
330
88
100
AcDbEntity
  8
0
100
AcDbBlockBegin
  2
SW_CENTERMARKSYMBOL_0
 70
     0
 10
0.0
 20
0.0
 30
0.0
  3
SW_CENTERMARKSYMBOL_0
  1

  0
LINE
  5
8B
330
88
100
AcDbEntity
  8
FORMAT
 62
     0
100
AcDbLine
 10
0.0
 20
0.0
 30
0.0
 11
0.0
 21
2.5
 31
0.0
  0
LINE
  5
8C
330
88
100
AcDbEntity
  8
FORMAT
 62
     0
100
AcDbLine
 10
0.0
 20
0.0
 30
0.0
 11
-2.5
 21
0.0
 31
0.0
  0
LINE
  5
8D
330
88
100
AcDbEntity
  8
FORMAT
 62
     0
100
AcDbLine
 10
0.0
 20
0.0
 30
0.0
 11
0.0
 21
-2.5
 31
0.0
  0
LINE
  5
8E
330
88
100
AcDbEntity
  8
FORMAT
 62
     0
100
AcDbLine
 10
0.0
 20
0.0
 30
0.0
 11
2.5
 21
0.0
 31
0.0
  0
LINE
  5
8F
330
88
100
AcDbEntity
  8
FORMAT
 62
     0
100
AcDbLine
 10
0.0
 20
5.0
 30
0.0
 11
0.0
 21
105.35
 31
0.0
  0
LINE
  5
90
330
88
100
AcDbEntity
  8
FORMAT
 62
     0
100
AcDbLine
 10
-5.0
 20
0.0
 30
0.0
 11
-105.35
 21
0.0
 31
0.0
  0
LINE
  5
91
330
88
100
AcDbEntity
  8
FORMAT
 62
     0
100
AcDbLine
 10
0.0
 20
-5.0
 30
0.0
 11
0.0
 21
-105.35
 31
0.0
  0
LINE
  5
92
330
88
100
AcDbEntity
  8
FORMAT
 62
     0
100
AcDbLine
 10
5.0
 20
0.0
 30
0.0
 11
105.35
 21
0.0
 31
0.0
  0
ENDBLK
  5
8A
330
88
100
AcDbEntity
  8
0
100
AcDbBlockEnd
  0
ENDSEC
  0
SECTION
  2
ENTITIES
  0
CIRCLE
  5
83
330
1F
100
AcDbEntity
  8
0
  6
Continuous
 62
     7
370
    25
100
AcDbCircle
 10
137.9424909615
 20
108.5958316346
 30
0.0
 40
84.13999999999999
  0
CIRCLE
  5
84
330
1F
100
AcDbEntity
  8
0
  6
Continuous
 62
     7
370
    25
100
AcDbCircle
 10
137.9424909615
 20
108.5958316346
 30
0.0
 40
77.03999999999999
  0
CIRCLE
  5
85
330
1F
100
AcDbEntity
  8
0
  6
Continuous
 62
     7
370
    25
100
AcDbCircle
 10
137.9424909615
 20
108.5958316346
 30
0.0
 40
86.64000000000001
  0
CIRCLE
  5
86
330
1F
100
AcDbEntity
  8
0
  6
Continuous
 62
     7
370
    25
100
AcDbCircle
 10
137.9424909615
 20
108.5958316346
 30
0.0
 40
102.85
  0
CIRCLE
  5
87
330
1F
100
AcDbEntity
  8
0
  6
Continuous
 62
     7
370
    25
100
AcDbCircle
 10
137.9424909615
 20
108.5958316346
 30
0.0
 40
65.4
  0
INSERT
  5
93
330
1F
100
AcDbEntity
  8
FORMAT
 62
     7
100
AcDbBlockReference
  2
SW_CENTERMARKSYMBOL_0
 10
137.9424909615
 20
108.5958316346
 30
0.0
  0
LINE
  5
94
330
1F
100
AcDbEntity
  8
0
  6
Continuous
 62
     7
370
    25
100
AcDbLine
 10
580.4157582462
 20
211.4458316346
 30
0.0
 11
522.4157582462
 21
188.5958316346
 31
0.0
  0
LINE
  5
95
330
1F
100
AcDbEntity
  8
0
  6
Continuous
 62
     7
370
    25
100
AcDbLine
 10
522.4157582462
 20
28.5958316346
 30
0.0
 11
580.4157582462
 21
5.7458316346
 31
0.0
  0
LINE
  5
96
330
1F
100
AcDbEntity
  8
0
  6
Continuous
 62
     7
370
    25
100
AcDbLine
 10
688.4157582462
 20
211.4458316346
 30
0.0
 11
580.4157582462
 21
211.4458316346
 31
0.0
  0
LINE
  5
97
330
1F
100
AcDbEntity
  8
0
  6
Continuous
 62
     7
370
    25
100
AcDbLine
 10
580.4157582462
 20
5.7458316346
 30
0.0
 11
688.4157582462
 21
5.7458316346
 31
0.0
  0
LINE
  5
98
330
1F
100
AcDbEntity
  8
0
  6
Continuous
 62
     7
370
    25
100
AcDbLine
 10
947.4157582462
 20
195.2358316346
 30
0.0
 11
688.4157582462
 21
195.2358316346
 31
0.0
  0
LINE
  5
99
330
1F
100
AcDbEntity
  8
0
  6
Continuous
 62
     7
370
    25
100
AcDbLine
 10
688.4157582462
 20
21.9558316346
 30
0.0
 11
947.4157582462
 21
21.9558316346
 31
0.0
  0
LINE
  5
9A
330
1F
100
AcDbEntity
  8
0
  6
Continuous
 62
     7
370
    25
100
AcDbLine
 10
1002.4157582462
 20
192.7358316346
 30
0.0
 11
947.4157582462
 21
192.7358316346
 31
0.0
  0
LINE
  5
9B
330
1F
100
AcDbEntity
  8
0
  6
Continuous
 62
     7
370
    25
100
AcDbLine
 10
947.4157582462
 20
24.4558316346
 30
0.0
 11
1002.4157582462
 21
24.4558316346
 31
0.0
  0
LINE
  5
9C
330
1F
100
AcDbEntity
  8
0
  6
Continuous
 62
     7
370
    25
100
AcDbLine
 10
522.4157582462
 20
188.5958316346
 30
0.0
 11
419.4157582462
 21
188.5958316346
 31
0.0
  0
LINE
  5
9D
330
1F
100
AcDbEntity
  8
0
  6
Continuous
 62
     7
370
    25
100
AcDbLine
 10
419.4157582462
 20
28.5958316346
 30
0.0
 11
522.4157582462
 21
28.5958316346
 31
0.0
  0
LINE
  5
9E
330
1F
100
AcDbEntity
  8
0
  6
Continuous
 62
     7
370
    25
100
AcDbLine
 10
522.4157582462
 20
188.5958316346
 30
0.0
 11
522.4157582462
 21
28.5958316346
 31
0.0
  0
LINE
  5
9F
330
1F
100
AcDbEntity
  8
0
  6
Continuous
 62
     7
370
    25
100
AcDbLine
 10
580.4157582462
 20
211.4458316346
 30
0.0
 11
580.4157582462
 21
5.7458316346
 31
0.0
  0
LINE
  5
A0
330
1F
100
AcDbEntity
  8
0
  6
Continuous
 62
     7
370
    25
100
AcDbLine
 10
688.4157582462
 20
211.4458316346
 30
0.0
 11
688.4157582462
 21
5.7458316346
 31
0.0
  0
LINE
  5
A1
330
1F
100
AcDbEntity
  8
0
  6
Continuous
 62
     7
370
    25
100
AcDbLine
 10
947.4157582462
 20
195.2358316346
 30
0.0
 11
947.4157582462
 21
21.9558316346
 31
0.0
  0
LINE
  5
A2
330
1F
100
AcDbEntity
  8
0
  6
Continuous
 62
     7
370
    25
100
AcDbLine
 10
1002.4157582462
 20
192.7358316346
 30
0.0
 11
1002.4157582462
 21
24.4558316346
 31
0.0
  0
LINE
  5
A3
330
1F
100
AcDbEntity
  8
0
  6
Continuous
 62
     7
370
    25
100
AcDbLine
 10
419.4157582462
 20
188.5958316346
 30
0.0
 11
419.4157582462
 21
28.5958316346
 31
0.0
  0
LINE
  5
A4
330
1F
100
AcDbEntity
  8
0
  6
Continuous
 62
     7
370
    25
100
AcDbLine
 10
-309.0244312412
 20
5.7458316346
 30
0.0
 11
-251.0244312412
 21
28.5958316346
 31
0.0
  0
LINE
  5
A5
330
1F
100
AcDbEntity
  8
0
  6
Continuous
 62
     7
370
    25
100
AcDbLine
 10
-251.0244312412
 20
188.5958316346
 30
0.0
 11
-309.0244312412
 21
211.4458316346
 31
0.0
  0
LINE
  5
A6
330
1F
100
AcDbEntity
  8
0
  6
Continuous
 62
     7
370
    25
100
AcDbLine
 10
-417.0244312412
 20
5.7458316346
 30
0.0
 11
-309.0244312412
 21
5.7458316346
 31
0.0
  0
LINE
  5
A7
330
1F
100
AcDbEntity
  8
0
  6
Continuous
 62
     7
370
    25
100
AcDbLine
 10
-309.0244312412
 20
211.4458316346
 30
0.0
 11
-417.0244312412
 21
211.4458316346
 31
0.0
  0
LINE
  5
A8
330
1F
100
AcDbEntity
  8
0
  6
Continuous
 62
     7
370
    25
100
AcDbLine
 10
-676.0244312412
 20
21.9558316346
 30
0.0
 11
-417.0244312412
 21
21.9558316346
 31
0.0
  0
LINE
  5
A9
330
1F
100
AcDbEntity
  8
0
  6
Continuous
 62
     7
370
    25
100
AcDbLine
 10
-417.0244312412
 20
195.2358316346
 30
0.0
 11
-676.0244312412
 21
195.2358316346
 31
0.0
  0
LINE
  5
AA
330
1F
100
AcDbEntity
  8
0
  6
Continuous
 62
     7
370
    25
100
AcDbLine
 10
-731.0244312412
 20
24.4558316346
 30
0.0
 11
-676.0244312412
 21
24.4558316346
 31
0.0
  0
LINE
  5
AB
330
1F
100
AcDbEntity
  8
0
  6
Continuous
 62
     7
370
    25
100
AcDbLine
 10
-676.0244312412
 20
192.7358316346
 30
0.0
 11
-731.0244312412
 21
192.7358316346
 31
0.0
  0
LINE
  5
AC
330
1F
100
AcDbEntity
  8
0
  6
Continuous
 62
     7
370
    25
100
AcDbLine
 10
-251.0244312412
 20
28.5958316346
 30
0.0
 11
-148.0244312412
 21
28.5958316346
 31
0.0
  0
LINE
  5
AD
330
1F
100
AcDbEntity
  8
0
  6
Continuous
 62
     7
370
    25
100
AcDbLine
 10
-148.0244312412
 20
188.5958316346
 30
0.0
 11
-251.0244312412
 21
188.5958316346
 31
0.0
  0
LINE
  5
AE
330
1F
100
AcDbEntity
  8
0
  6
Continuous
 62
     7
370
    25
100
AcDbLine
 10
-251.0244312412
 20
108.5958316346
 30
0.0
 11
-251.0244312412
 21
188.5958316346
 31
0.0
  0
LINE
  5
AF
330
1F
100
AcDbEntity
  8
0
  6
Continuous
 62
     7
370
    25
100
AcDbLine
 10
-251.0244312412
 20
28.5958316346
 30
0.0
 11
-251.0244312412
 21
108.5958316346
 31
0.0
  0
LINE
  5
B0
330
1F
100
AcDbEntity
  8
0
  6
Continuous
 62
     7
370
    25
100
AcDbLine
 10
-309.0244312412
 20
108.5958316346
 30
0.0
 11
-309.0244312412
 21
211.4458316346
 31
0.0
  0
LINE
  5
B1
330
1F
100
AcDbEntity
  8
0
  6
Continuous
 62
     7
370
    25
100
AcDbLine
 10
-309.0244312412
 20
5.7458316346
 30
0.0
 11
-309.0244312412
 21
108.5958316346
 31
0.0
  0
LINE
  5
B2
330
1F
100
AcDbEntity
  8
0
  6
Continuous
 62
     7
370
    25
100
AcDbLine
 10
-417.0244312412
 20
108.5958316346
 30
0.0
 11
-417.0244312412
 21
211.4458316346
 31
0.0
  0
LINE
  5
B3
330
1F
100
AcDbEntity
  8
0
  6
Continuous
 62
     7
370
    25
100
AcDbLine
 10
-417.0244312412
 20
5.7458316346
 30
0.0
 11
-417.0244312412
 21
108.5958316346
 31
0.0
  0
LINE
  5
B4
330
1F
100
AcDbEntity
  8
0
  6
Continuous
 62
     7
370
    25
100
AcDbLine
 10
-676.0244312412
 20
108.5958316346
 30
0.0
 11
-676.0244312412
 21
195.2358316346
 31
0.0
  0
LINE
  5
B5
330
1F
100
AcDbEntity
  8
0
  6
Continuous
 62
     7
370
    25
100
AcDbLine
 10
-676.0244312412
 20
21.9558316346
 30
0.0
 11
-676.0244312412
 21
108.5958316346
 31
0.0
  0
LINE
  5
B6
330
1F
100
AcDbEntity
  8
0
  6
Continuous
 62
     7
370
    25
100
AcDbLine
 10
-731.0244312412
 20
108.5958316346
 30
0.0
 11
-731.0244312412
 21
192.7358316346
 31
0.0
  0
LINE
  5
B7
330
1F
100
AcDbEntity
  8
0
  6
Continuous
 62
     7
370
    25
100
AcDbLine
 10
-731.0244312412
 20
24.4558316346
 30
0.0
 11
-731.0244312412
 21
108.5958316346
 31
0.0
  0
LINE
  5
B8
330
1F
100
AcDbEntity
  8
0
  6
Continuous
 62
     7
370
    25
100
AcDbLine
 10
-148.0244312412
 20
108.5958316346
 30
0.0
 11
-148.0244312412
 21
188.5958316346
 31
0.0
  0
LINE
  5
B9
330
1F
100
AcDbEntity
  8
0
  6
Continuous
 62
     7
370
    25
100
AcDbLine
 10
-148.0244312412
 20
28.5958316346
 30
0.0
 11
-148.0244312412
 21
108.5958316346
 31
0.0
  0
LINE
  5
BA
330
1F
100
AcDbEntity
  8
0
  6
Continuous
 62
     7
370
    25
100
AcDbLine
 10
35.0924909615
 20
-544.3011712551
 30
0.0
 11
57.9424909615
 21
-602.3011712551
 31
0.0
  0
LINE
  5
BB
330
1F
100
AcDbEntity
  8
0
  6
Continuous
 62
     7
370
    25
100
AcDbLine
 10
217.9424909615
 20
-602.3011712551
 30
0.0
 11
240.7924909615
 21
-544.3011712551
 31
0.0
  0
LINE
  5
BC
330
1F
100
AcDbEntity
  8
0
  6
Continuous
 62
     7
370
    25
100
AcDbLine
 10
35.0924909615
 20
-436.3011712551
 30
0.0
 11
35.0924909615
 21
-544.3011712551
 31
0.0
  0
LINE
  5
BD
330
1F
100
AcDbEntity
  8
0
  6
Continuous
 62
     7
370
    25
100
AcDbLine
 10
240.7924909615
 20
-544.3011712551
 30
0.0
 11
240.7924909615
 21
-436.3011712551
 31
0.0
  0
LINE
  5
BE
330
1F
100
AcDbEntity
  8
0
  6
Continuous
 62
     7
370
    25
100
AcDbLine
 10
51.3024909615
 20
-177.3011712551
 30
0.0
 11
51.3024909615
 21
-436.3011712551
 31
0.0
  0
LINE
  5
BF
330
1F
100
AcDbEntity
  8
0
  6
Continuous
 62
     7
370
    25
100
AcDbLine
 10
224.5824909615
 20
-436.3011712551
 30
0.0
 11
224.5824909615
 21
-177.3011712551
 31
0.0
  0
LINE
  5
C0
330
1F
100
AcDbEntity
  8
0
  6
Continuous
 62
     7
370
    25
100
AcDbLine
 10
53.8024909615
 20
-122.3011712551
 30
0.0
 11
53.8024909615
 21
-177.3011712551
 31
0.0
  0
LINE
  5
C1
330
1F
100
AcDbEntity
  8
0
  6
Continuous
 62
     7
370
    25
100
AcDbLine
 10
222.0824909615
 20
-177.3011712551
 30
0.0
 11
222.0824909615
 21
-122.3011712551
 31
0.0
  0
LINE
  5
C2
330
1F
100
AcDbEntity
  8
0
  6
Continuous
 62
     7
370
    25
100
AcDbLine
 10
57.9424909615
 20
-602.3011712551
 30
0.0
 11
57.9424909615
 21
-705.3011712551
 31
0.0
  0
LINE
  5
C3
330
1F
100
AcDbEntity
  8
0
  6
Continuous
 62
     7
370
    25
100
AcDbLine
 10
217.9424909615
 20
-705.3011712551
 30
0.0
 11
217.9424909615
 21
-602.3011712551
 31
0.0
  0
LINE
  5
C4
330
1F
100
AcDbEntity
  8
0
  6
Continuous
 62
     7
370
    25
100
AcDbLine
 10
57.9424909615
 20
-602.3011712551
 30
0.0
 11
217.9424909615
 21
-602.3011712551
 31
0.0
  0
LINE
  5
C5
330
1F
100
AcDbEntity
  8
0
  6
Continuous
 62
     7
370
    25
100
AcDbLine
 10
35.0924909615
 20
-544.3011712551
 30
0.0
 11
240.7924909615
 21
-544.3011712551
 31
0.0
  0
LINE
  5
C6
330
1F
100
AcDbEntity
  8
0
  6
Continuous
 62
     7
370
    25
100
AcDbLine
 10
35.0924909615
 20
-436.3011712551
 30
0.0
 11
240.7924909615
 21
-436.3011712551
 31
0.0
  0
LINE
  5
C7
330
1F
100
AcDbEntity
  8
0
  6
Continuous
 62
     7
370
    25
100
AcDbLine
 10
51.3024909615
 20
-177.3011712551
 30
0.0
 11
224.5824909615
 21
-177.3011712551
 31
0.0
  0
LINE
  5
C8
330
1F
100
AcDbEntity
  8
0
  6
Continuous
 62
     7
370
    25
100
AcDbLine
 10
53.8024909615
 20
-122.3011712551
 30
0.0
 11
222.0824909615
 21
-122.3011712551
 31
0.0
  0
LINE
  5
C9
330
1F
100
AcDbEntity
  8
0
  6
Continuous
 62
     7
370
    25
100
AcDbLine
 10
57.9424909615
 20
-705.3011712551
 30
0.0
 11
217.9424909615
 21
-705.3011712551
 31
0.0
  0
LINE
  5
CA
330
1F
100
AcDbEntity
  8
0
  6
Continuous
 62
     7
370
    25
100
AcDbLine
 10
240.7924909615
 20
768.9608604367
 30
0.0
 11
217.9424909615
 21
826.9608604367
 31
0.0
  0
LINE
  5
CB
330
1F
100
AcDbEntity
  8
0
  6
Continuous
 62
     7
370
    25
100
AcDbLine
 10
57.9424909615
 20
826.9608604367
 30
0.0
 11
35.0924909615
 21
768.9608604367
 31
0.0
  0
LINE
  5
CC
330
1F
100
AcDbEntity
  8
0
  6
Continuous
 62
     7
370
    25
100
AcDbLine
 10
240.7924909615
 20
660.9608604367
 30
0.0
 11
240.7924909615
 21
768.9608604367
 31
0.0
  0
LINE
  5
CD
330
1F
100
AcDbEntity
  8
0
  6
Continuous
 62
     7
370
    25
100
AcDbLine
 10
35.0924909615
 20
768.9608604367
 30
0.0
 11
35.0924909615
 21
660.9608604367
 31
0.0
  0
LINE
  5
CE
330
1F
100
AcDbEntity
  8
0
  6
Continuous
 62
     7
370
    25
100
AcDbLine
 10
224.5824909615
 20
401.9608604367
 30
0.0
 11
224.5824909615
 21
660.9608604367
 31
0.0
  0
LINE
  5
CF
330
1F
100
AcDbEntity
  8
0
  6
Continuous
 62
     7
370
    25
100
AcDbLine
 10
51.3024909615
 20
660.9608604367
 30
0.0
 11
51.3024909615
 21
401.9608604367
 31
0.0
  0
LINE
  5
D0
330
1F
100
AcDbEntity
  8
0
  6
Continuous
 62
     7
370
    25
100
AcDbLine
 10
222.0824909615
 20
346.9608604367
 30
0.0
 11
222.0824909615
 21
401.9608604367
 31
0.0
  0
LINE
  5
D1
330
1F
100
AcDbEntity
  8
0
  6
Continuous
 62
     7
370
    25
100
AcDbLine
 10
53.8024909615
 20
401.9608604367
 30
0.0
 11
53.8024909615
 21
346.9608604367
 31
0.0
  0
LINE
  5
D2
330
1F
100
AcDbEntity
  8
0
  6
Continuous
 62
     7
370
    25
100
AcDbLine
 10
217.9424909615
 20
826.9608604367
 30
0.0
 11
217.9424909615
 21
929.9608604367
 31
0.0
  0
LINE
  5
D3
330
1F
100
AcDbEntity
  8
0
  6
Continuous
 62
     7
370
    25
100
AcDbLine
 10
57.9424909615
 20
929.9608604367
 30
0.0
 11
57.9424909615
 21
826.9608604367
 31
0.0
  0
LINE
  5
D4
330
1F
100
AcDbEntity
  8
0
  6
Continuous
 62
     7
370
    25
100
AcDbLine
 10
217.9424909615
 20
826.9608604367
 30
0.0
 11
57.9424909615
 21
826.9608604367
 31
0.0
  0
LINE
  5
D5
330
1F
100
AcDbEntity
  8
0
  6
Continuous
 62
     7
370
    25
100
AcDbLine
 10
240.7924909615
 20
768.9608604367
 30
0.0
 11
35.0924909615
 21
768.9608604367
 31
0.0
  0
LINE
  5
D6
330
1F
100
AcDbEntity
  8
0
  6
Continuous
 62
     7
370
    25
100
AcDbLine
 10
240.7924909615
 20
660.9608604367
 30
0.0
 11
35.0924909615
 21
660.9608604367
 31
0.0
  0
LINE
  5
D7
330
1F
100
AcDbEntity
  8
0
  6
Continuous
 62
     7
370
    25
100
AcDbLine
 10
224.5824909615
 20
401.9608604367
 30
0.0
 11
51.3024909615
 21
401.9608604367
 31
0.0
  0
LINE
  5
D8
330
1F
100
AcDbEntity
  8
0
  6
Continuous
 62
     7
370
    25
100
AcDbLine
 10
222.0824909615
 20
346.9608604367
 30
0.0
 11
53.8024909615
 21
346.9608604367
 31
0.0
  0
LINE
  5
D9
330
1F
100
AcDbEntity
  8
0
  6
Continuous
 62
     7
370
    25
100
AcDbLine
 10
217.9424909615
 20
929.9608604367
 30
0.0
 11
57.9424909615
 21
929.9608604367
 31
0.0
  0
LINE
  5
DA
330
1F
100
AcDbEntity
  8
0
  6
Continuous
 62
     7
370
    25
100
AcDbLine
 10
435.0782892924
 20
-307.4710911254
 30
0.0
 11
473.9691622577
 21
-329.9223142005
 31
0.0
  0
LINE
  5
DB
330
1F
100
AcDbEntity
  8
0
  6
Continuous
 62
     7
370
    25
100
AcDbLine
 10
558.1023244217
 20
-184.1836116391
 30
0.0
 11
519.2114514564
 21
-161.732388564
 31
0.0
  0
LINE
  5
DC
330
1F
100
AcDbEntity
  8
0
  6
Continuous
 62
     7
370
    25
100
AcDbLine
 10
472.7192638419
 20
-332.0874363565
 30
0.0
 11
655.8599201692
 21
-437.8122868375
 31
0.0
  0
LINE
  5
DD
330
1F
100
AcDbEntity
  8
0
  6
Continuous
 62
     7
370
    25
100
AcDbLine
 10
742.4928791648
 20
-287.7433399642
 30
0.0
 11
559.3522228375
 21
-182.0184894831
 31
0.0
  0
LINE
  5
DE
330
1F
100
AcDbEntity
  8
0
  6
Continuous
 62
     7
370
    25
100
AcDbLine
 10
647.7555788412
 20
-451.8509388967
 30
0.0
 11
724.1231112093
 21
-495.9369769351
 31
0.0
  0
LINE
  5
DF
330
1F
100
AcDbEntity
  8
0
  6
Continuous
 62
     7
370
    25
100
AcDbLine
 10
826.964752861
 20
-317.7907259434
 30
0.0
 11
750.5972204928
 21
-273.704687905
 31
0.0
  0
LINE
  5
E0
330
1F
100
AcDbEntity
  8
0
  6
Continuous
 62
     7
370
    25
100
AcDbLine
 10
740.4870623059
 20
-500.6817944028
 30
0.0
 11
789.2877774748
 21
-503.5142655551
 31
0.0
  0
LINE
  5
E1
330
1F
100
AcDbEntity
  8
0
  6
Continuous
 62
     7
370
    25
100
AcDbLine
 10
866.1141504274
 20
-370.4326645714
 30
0.0
 11
839.256968033
 21
-329.5887611381
 31
0.0
  0
LINE
  5
E2
330
1F
100
AcDbEntity
  8
0
  6
Continuous
 62
     7
370
    25
100
AcDbLine
 10
782.2443356215
 20
-503.1054529835
 30
0.0
 11
849.3913745007
 21
-541.8686134315
 31
0.0
  0
LINE
  5
E3
330
1F
100
AcDbEntity
  8
0
  6
Continuous
 62
     7
370
    25
100
AcDbLine
 10
929.3848731116
 20
-403.3007954506
 30
0.0
 11
862.2378342323
 21
-364.5376350026
 31
0.0
  0
LWPOLYLINE
  5
E4
330
1F
100
AcDbEntity
  8
0
  6
Continuous
 62
     7
370
    25
100
AcDbPolyline
 90
       98
 70
   128
 43
0.0
 10
536.6408349435
 20
-200.2554505803
 10
536.5160615676
 20
-195.8802998519
 10
536.1422647829
 20
-191.6675602995
 10
535.5210124231
 20
-187.6349016168
 10
534.6549102363
 20
-183.7992381757
 10
533.5475909562
 20
-180.1766580818
 10
532.2036990647
 20
-176.7823556948
 10
530.6288713113
 20
-173.6305678986
 10
528.829713071
 20
-170.7345143865
 10
526.8137706387
 20
-168.1063422135
 10
524.5894995775
 20
-165.7570748469
 10
522.1662292532
 20
-163.6965659304
 10
519.5541237038
 20
-161.9334579547
 10
516.7641390077
 20
-160.4751460073
 10
513.8079773302
 20
-159.3277467552
 10
510.6980378409
 20
-158.4960727897
 10
507.4473647066
 20
-157.9836124404
 10
504.0695923803
 20
-157.7925151441
 10
500.5788884128
 20
-157.9235824293
 10
496.9898940298
 20
-158.3762645543
 10
493.317662721
 20
-159.1486628128
 10
489.5775971006
 20
-160.2375374982
 10
485.7853843037
 20
-161.6383214917
 10
481.9569301885
 20
-163.3451394183
 10
478.1082926222
 20
-165.3508322905
 10
474.2556141281
 20
-167.6469875354
 10
470.4150541788
 20
-170.2239742799
 10
466.6027214175
 20
-173.070983746
 10
462.8346060925
 20
-176.1760745867
 10
459.1265129891
 20
-179.5262229718
 10
455.4939951383
 20
-183.1073772147
 10
451.9522885826
 20
-186.9045167101
 10
448.5162484699
 20
-190.9017149353
 10
445.2002867466
 20
-195.0822062518
 10
442.0183117086
 20
-199.4284562261
 10
438.983669665
 20
-203.9222351756
 10
436.1090889591
 20
-208.5446946295
 10
433.4066265814
 20
-213.2764463865
 10
430.8876175982
 20
-218.0976438354
 10
428.5626276088
 20
-222.9880651984
 10
426.441408429
 20
-227.927198349
 10
424.5328571894
 20
-232.8943268462
 10
422.844979017
 20
-237.8686168269
 10
421.3848534595
 20
-242.8292043902
 10
420.1586047909
 20
-247.7552831079
 10
419.1713763243
 20
-252.626191294
 10
418.427308839
 20
-257.4214986668
 10
417.9295232125
 20
-262.1210920406
 10
417.6801073309
 20
-266.7052596877
 10
417.6801073309
 20
-271.1547740159
 10
417.9295232125
 20
-275.4509722156
 10
418.427308839
 20
-279.5758345386
 10
419.1713763243
 20
-283.5120598789
 10
420.1586047909
 20
-287.2431383395
 10
421.3848534595
 20
-290.7534204806
 10
422.844979017
 20
-294.0281829589
 10
424.5328571894
 20
-297.0536902828
 10
426.441408429
 20
-299.8172524229
 10
428.5626276088
 20
-302.3072780392
 10
430.8876175982
 20
-304.5133230991
 10
433.4066265814
 20
-306.4261346827
 10
436.1090889591
 20
-308.0376897937
 10
438.983669665
 20
-309.3412290098
 10
442.0183117086
 20
-310.3312848345
 10
445.2002867466
 20
-311.0037046297
 10
448.5162484699
 20
-311.3556680329
 10
451.9522885826
 20
-311.3856987875
 10
455.4939951383
 20
-311.093670934
 10
459.1265129891
 20
-310.4808093387
 10
462.8346060925
 20
-309.549684556
 10
466.6027214175
 20
-308.304202047
 10
470.4150541788
 20
-306.7495857981
 10
474.2556141281
 20
-304.8923564101
 10
478.1082926222
 20
-302.7403037485
 10
481.9569301885
 20
-300.3024542701
 10
485.7853843037
 20
-297.5890331628
 10
489.5775971006
 20
-294.6114214576
 10
493.317662721
 20
-291.382108293
 10
496.9898940298
 20
-287.9146385305
 10
500.5788884128
 20
-284.2235559433
 10
504.0695923803
 20
-280.3243422147
 10
507.4473647066
 20
-276.2333520019
 10
510.6980378409
 20
-271.9677443398
 10
513.8079773302
 20
-267.5454106692
 10
516.7641390077
 20
-262.9848997945
 10
519.5541237038
 20
-258.3053400831
 10
522.1662292532
 20
-253.5263592346
 10
524.5894995775
 20
-248.6680019557
 10
526.8137706387
 20
-243.7506458852
 10
528.829713071
 20
-238.7949161232
 10
530.6288713113
 20
-233.8215987227
 10
532.2036990647
 20
-228.8515535052
 10
533.5475909562
 20
-223.9056265675
 10
534.6549102363
 20
-219.004562846
 10
535.5210124231
 20
-214.1689191053
 10
536.1422647829
 20
-209.4189777157
 10
536.5160615676
 20
-204.7746615821
 10
536.6408349435
 20
-200.2554505803
  0
LWPOLYLINE
  5
E5
330
1F
100
AcDbEntity
  8
0
  6
Continuous
 62
     7
370
    25
100
AcDbPolyline
 90
       94
 70
   128
 43
0.0
 10
531.620376797
 20
-203.1536993773
 10
531.4960971764
 20
-198.9786558063
 10
531.1238253738
 20
-194.9661521973
 10
530.5052599803
 20
-191.134496684
 10
529.6432233677
 20
-187.5011722315
 10
528.5416488114
 20
-184.082756866
 10
527.2055625434
 20
-180.8948480328
 10
525.6410608191
 20
-177.9519914288
 10
523.8552821008
 20
-175.2676146335
 10
521.8563744873
 20
-172.8539658428
 10
519.6534585357
 20
-170.7220579823
 10
517.2565856459
 20
-168.8816184587
 10
514.6766921995
 20
-167.3410447754
 10
511.9255496584
 20
-166.1073662168
 10
509.0157108549
 20
-165.1862117752
 10
505.9604527163
 20
-164.581784467
 10
502.7737156846
 20
-164.2968421554
 10
499.47004011
 20
-164.3326849668
 10
496.0644999064
 20
-164.6891493587
 10
492.5726337726
 20
-165.3646088658
 10
489.010374293
 20
-166.3559815214
 10
485.3939752404
 20
-167.6587439193
 10
481.7399374144
 20
-169.2669518536
 10
478.0649333514
 20
-171.1732674403
 10
474.385731252
 20
-173.3689925986
 10
470.7191184717
 20
-175.8441087382
 10
467.0818249234
 20
-178.5873224719
 10
463.4904467435
 20
-181.5861171446
 10
459.9613705668
 20
-184.826809944
 10
456.5106987586
 20
-188.2946143322
 10
453.1541759428
 20
-191.9737075131
 10
449.9071171631
 20
-195.8473026283
 10
446.7843380041
 20
-199.8977253518
 10
443.8000869908
 20
-204.1064945338
 10
440.9679805761
 20
-208.4544065257
 10
438.3009410121
 20
-212.9216228024
 10
435.8111373885
 20
-217.4877604806
 10
433.5099301081
 20
-222.1319853213
 10
431.4078190521
 20
-226.8331067919
 10
429.514395671
 20
-231.5696747533
 10
427.8382992215
 20
-236.3200773323
 10
426.3871773472
 20
-241.0626395314
 10
425.1676511843
 20
-245.7757221271
 10
424.1852851512
 20
-250.4378204046
 10
423.4445615585
 20
-255.0276622786
 10
422.9488601583
 20
-259.5243053534
 10
422.7004427223
 20
-263.9072324781
 10
422.7004427223
 20
-268.1564453614
 10
422.9488601583
 20
-272.2525558196
 10
423.4445615585
 20
-276.17687424
 10
424.1852851512
 20
-279.9114948579
 10
425.1676511843
 20
-283.4393774559
 10
426.3871773472
 20
-286.7444251148
 10
427.8382992215
 20
-289.8115576604
 10
429.514395671
 20
-292.6267804702
 10
431.4078190521
 20
-295.1772483282
 10
433.5099301081
 20
-297.4513240347
 10
435.8111373885
 20
-299.4386315037
 10
438.3009410121
 20
-301.130103107
 10
440.9679805761
 20
-302.5180210477
 10
443.8000869908
 20
-303.5960525746
 10
446.7843380041
 20
-304.359278877
 10
449.9071171631
 20
-304.8042175285
 10
453.1541759428
 20
-304.9288383759
 10
456.5106987586
 20
-304.7325728029
 10
459.9613705668
 20
-304.2163163244
 10
463.4904467435
 20
-303.3824245002
 10
467.0818249234
 20
-302.2347021875
 10
470.7191184717
 20
-300.7783861799
 10
474.385731252
 20
-299.0201213134
 10
478.0649333514
 20
-296.9679301472
 10
481.7399374144
 20
-294.631176359
 10
485.3939752404
 20
-292.0205220204
 10
489.010374293
 20
-289.1478789482
 10
492.5726337726
 20
-286.0263543541
 10
496.0644999064
 20
-282.6701910387
 10
499.47004011
 20
-279.0947024054
 10
502.7737156846
 20
-275.316202589
 10
505.9604527163
 20
-271.3519320173
 10
509.0157108549
 20
-267.2199787477
 10
511.9255496584
 20
-262.9391959354
 10
514.6766921995
 20
-258.5291158104
 10
517.2565856459
 20
-254.0098605568
 10
519.6534585357
 20
-249.4020504999
 10
521.8563744873
 20
-244.7267100201
 10
523.8552821008
 20
-240.0051716236
 10
525.6410608191
 20
-235.2589786073
 10
527.2055625434
 20
-230.5097867612
 10
528.5416488114
 20
-225.7792655585
 10
529.6432233677
 20
-221.0889992825
 10
530.5052599803
 20
-216.4603885423
 10
531.1238253738
 20
-211.9145526273
 10
531.4960971764
 20
-207.4722331439
 10
531.620376797
 20
-203.1536993773
  0
LWPOLYLINE
  5
E6
330
1F
100
AcDbEntity
  8
0
  6
Continuous
 62
     7
370
    25
100
AcDbPolyline
 90
       14
 70
   128
 43
0.0
 10
575.5317079087
 20
-222.7066736554
 10
575.4069345329
 20
-218.331522927
 10
575.0331377482
 20
-214.1187833746
 10
574.4118853883
 20
-210.0861246919
 10
573.5457832016
 20
-206.2504612508
 10
572.4384639215
 20
-202.6278811569
 10
571.0945720299
 20
-199.2335787699
 10
569.5197442766
 20
-196.0817909737
 10
567.7205860363
 20
-193.1857374617
 10
565.7046436039
 20
-190.5575652886
 10
563.4803725427
 20
-188.208297922
 10
561.0571022185
 20
-186.1477890056
 10
558.4449966691
 20
-184.3846810299
 10
558.1023244217
 20
-184.1836116391
  0
LWPOLYLINE
  5
E7
330
1F
100
AcDbEntity
  8
0
  6
Continuous
 62
     7
370
    25
100
AcDbPolyline
 90
       38
 70
   128
 43
0.0
 10
473.9691622577
 20
-329.9223142005
 10
474.9999619243
 20
-330.4889128688
 10
477.8745426302
 20
-331.7924520849
 10
480.9091846738
 20
-332.7825079096
 10
484.0911597119
 20
-333.4549277048
 10
487.4071214351
 20
-333.8068911081
 10
490.8431615478
 20
-333.8369218627
 10
494.3848681036
 20
-333.5448940091
 10
498.0173859543
 20
-332.9320324138
 10
501.7254790577
 20
-332.0009076311
 10
505.4935943827
 20
-330.7554251221
 10
509.3059271441
 20
-329.2008088732
 10
513.1464870934
 20
-327.3435794852
 10
516.9991655874
 20
-325.1915268236
 10
520.8478031537
 20
-322.7536773452
 10
524.6762572689
 20
-320.0402562379
 10
528.4684700659
 20
-317.0626445328
 10
532.2085356862
 20
-313.8333313681
 10
535.8807669951
 20
-310.3658616056
 10
539.4697613781
 20
-306.6747790184
 10
542.9604653455
 20
-302.7755652898
 10
546.3382376719
 20
-298.6845750771
 10
549.5889108061
 20
-294.4189674149
 10
552.6988502955
 20
-289.9966337444
 10
555.655011973
 20
-285.4361228696
 10
558.4449966691
 20
-280.7565631582
 10
561.0571022185
 20
-275.9775823098
 10
563.4803725427
 20
-271.1192250309
 10
565.7046436039
 20
-266.2018689603
 10
567.7205860363
 20
-261.2461391983
 10
569.5197442766
 20
-256.2728217978
 10
571.0945720299
 20
-251.3027765803
 10
572.4384639215
 20
-246.3568496426
 10
573.5457832016
 20
-241.4557859211
 10
574.4118853883
 20
-236.6201421804
 10
575.0331377482
 20
-231.8702007908
 10
575.4069345329
 20
-227.2258846572
 10
575.5317079087
 20
-222.7066736554
  0
LWPOLYLINE
  5
E8
330
1F
100
AcDbEntity
  8
0
  6
Continuous
 62
     7
370
    25
100
AcDbPolyline
 90
       14
 70
   128
 43
0.0
 10
760.440131189
 20
-327.4110139967
 10
760.3142582821
 20
-322.9510250196
 10
759.9371568001
 20
-318.6546928588
 10
759.3103763339
 20
-314.5396720647
 10
758.4364924588
 20
-310.6228721403
 10
757.3190961513
 20
-306.9203880568
 10
755.9627790323
 20
-303.4474341155
 10
754.3731144998
 20
-300.2182814289
 10
752.5566348265
 20
-297.2461992782
 10
750.5208043169
 20
-294.5434005864
 10
748.2739886352
 20
-292.1209917331
 10
745.825420429
 20
-289.9889269159
 10
743.1851613904
 20
-288.1559672464
 10
742.4928791648
 20
-287.7433399642
  0
LWPOLYLINE
  5
E9
330
1F
100
AcDbEntity
  8
0
  6
Continuous
 62
     7
370
    25
100
AcDbPolyline
 90
       38
 70
   128
 43
0.0
 10
655.8599201692
 20
-437.8122868375
 10
657.988738424
 20
-438.9259820526
 10
660.9790878392
 20
-440.1393953912
 10
664.126398202
 20
-441.0349133954
 10
667.417736539
 20
-441.6088561896
 10
670.839578035
 20
-441.8588653198
 10
674.3778616094
 20
-441.7839134448
 10
678.0180476958
 20
-441.384308558
 10
681.745177989
 20
-440.6616927216
 10
685.5439369111
 20
-439.6190353189
 10
689.3987145467
 20
-438.2606208531
 10
693.2936707879
 20
-436.5920313403
 10
697.2128004238
 20
-434.620123373
 10
701.1399989102
 20
-432.3529999439
 10
705.0591285461
 20
-429.7999771494
 10
708.9540847873
 20
-426.9715459079
 10
712.8088624229
 20
-423.87932885
 10
716.607621345
 20
-420.5360325589
 10
720.3347516381
 20
-416.9553953562
 10
723.9749377246
 20
-413.1521308481
 10
727.513221299
 20
-409.1418674644
 10
730.935062795
 20
-404.9410842375
 10
734.226401132
 20
-400.5670430868
 10
737.3737114948
 20
-396.0377178855
 10
740.36406091
 20
-391.3717206024
 10
743.1851613904
 20
-386.5882248213
 10
745.825420429
 20
-381.7068869523
 10
748.2739886352
 20
-376.7477654599
 10
750.5208043169
 20
-371.7312384379
 10
752.5566348265
 20
-366.6779198719
 10
754.3731144999
 20
-361.6085749318
 10
755.9627790323
 20
-356.5440346434
 10
757.3190961513
 20
-351.5051102891
 10
758.4364924588
 20
-346.5125078898
 10
759.3103763339
 20
-341.5867431198
 10
759.9371568001
 20
-336.748057003
 10
760.3142582821
 20
-332.0163327387
 10
760.440131189
 20
-327.4110139967
  0
LWPOLYLINE
  5
EA
330
1F
100
AcDbEntity
  8
0
  6
Continuous
 62
     7
370
    25
100
AcDbPolyline
 90
       18
 70
   128
 43
0.0
 10
577.2994748617
 20
-221.6861635157
 10
577.1736019548
 20
-217.2261745386
 10
576.7965004727
 20
-212.9298423777
 10
576.1697200065
 20
-208.8148215836
 10
575.2958361315
 20
-204.8980216593
 10
574.178439824
 20
-201.1955375758
 10
572.822122705
 20
-197.7225836344
 10
571.2324581725
 20
-194.4934309479
 10
569.4159784992
 20
-191.5213487972
 10
567.3801479896
 20
-188.8185501054
 10
565.1333323079
 20
-186.3961412521
 10
562.6847641017
 20
-184.2640764348
 10
560.0445050631
 20
-182.4311167653
 10
557.2234045826
 20
-180.904794268
 10
554.2330551675
 20
-179.6913809294
 10
551.0857448047
 20
-178.7958629252
 10
547.7944064677
 20
-178.221920131
 10
547.7701006608
 20
-178.2189458234
  0
LWPOLYLINE
  5
EB
330
1F
100
AcDbEntity
  8
0
  6
Continuous
 62
     7
370
    25
100
AcDbPolyline
 90
       42
 70
   128
 43
0.0
 10
463.6369384968
 20
-323.9576483848
 10
464.6913386898
 20
-325.2873757343
 10
466.9381543715
 20
-327.7097845876
 10
469.3867225776
 20
-329.8418494048
 10
472.0269816163
 20
-331.6748090743
 10
474.8480820967
 20
-333.2011315716
 10
477.8384315119
 20
-334.4145449102
 10
480.9857418747
 20
-335.3100629144
 10
484.2770802117
 20
-335.8840057086
 10
487.6989217077
 20
-336.1340148388
 10
491.237205282
 20
-336.0590629638
 10
494.8773913685
 20
-335.659458077
 10
498.6045216617
 20
-334.9368422405
 10
502.4032805838
 20
-333.8941848379
 10
506.2580582194
 20
-332.535770372
 10
510.1530144605
 20
-330.8671808593
 10
514.0721440965
 20
-328.895272892
 10
517.9993425829
 20
-326.6281494629
 10
521.9184722188
 20
-324.0751266684
 10
525.8134284599
 20
-321.2466954269
 10
529.6682060956
 20
-318.154478369
 10
533.4669650176
 20
-314.8111820779
 10
537.1940953108
 20
-311.2305448751
 10
540.8342813973
 20
-307.4272803671
 10
544.3725649716
 20
-303.4170169834
 10
547.7944064677
 20
-299.2162337565
 10
551.0857448047
 20
-294.8421926057
 10
554.2330551675
 20
-290.3128674044
 10
557.2234045827
 20
-285.6468701214
 10
560.0445050631
 20
-280.8633743403
 10
562.6847641017
 20
-275.9820364713
 10
565.1333323079
 20
-271.0229149788
 10
567.3801479896
 20
-266.0063879568
 10
569.4159784992
 20
-260.9530693908
 10
571.2324581725
 20
-255.8837244508
 10
572.822122705
 20
-250.8191841624
 10
574.178439824
 20
-245.780259808
 10
575.2958361315
 20
-240.7876574088
 10
576.1697200065
 20
-235.8618926388
 10
576.7965004727
 20
-231.023206522
 10
577.1736019548
 20
-226.2914822576
 10
577.2994748617
 20
-221.6861635157
  0
LWPOLYLINE
  5
EC
330
1F
100
AcDbEntity
  8
0
  6
Continuous
 62
     7
370
    25
100
AcDbPolyline
 90
       25
 70
   128
 43
0.0
 10
771.902332112
 20
-320.7940262504
 10
771.7769814345
 20
-315.9377318613
 10
771.4013615115
 20
-311.2429049367
 10
770.7767671828
 20
-306.7257295176
 10
769.9053515545
 20
-302.4017772436
 10
768.7901185766
 20
-298.2859536737
 10
767.4349126885
 20
-294.3924469046
 10
765.8444055654
 20
-290.7346786605
 10
764.0240800149
 20
-287.3252580265
 10
761.9802110763
 20
-284.1759379818
 10
759.7198443893
 20
-281.2975748849
 10
757.250771906
 20
-278.7000910497
 10
754.5815050309
 20
-276.3924405411
 10
751.7212452797
 20
-274.3825783085
 10
748.6798525605
 20
-272.6774327633
 10
745.467811184
 20
-271.2828818956
 10
742.0961937221
 20
-270.2037330109
 10
738.5766228388
 20
-269.4437061592
 10
734.921231224
 20
-269.0054213103
 10
731.1426197699
 20
-268.890389323
 10
727.2538141329
 20
-269.0990067364
 10
723.2682198318
 20
-269.630554403
 10
719.1995760356
 20
-270.4831999678
 10
715.0619082024
 20
-271.6540041851
 10
714.779470286
 20
-271.7447295585
  0
LWPOLYLINE
  5
ED
330
1F
100
AcDbEntity
  8
0
  6
Continuous
 62
     7
370
    25
100
AcDbPolyline
 90
       51
 70
   128
 43
0.0
 10
628.1465112904
 20
-421.8136764318
 10
628.9748078195
 20
-425.2386815883
 10
630.2105598539
 20
-429.2450734878
 10
631.6840514253
 20
-433.0223389723
 10
633.3902031028
 20
-436.5574570251
 10
635.3231334282
 20
-439.8382413621
 10
637.4761791904
 20
-442.85338244
 10
639.8419183944
 20
-445.5924864428
 10
642.4121958472
 20
-448.0461111117
 10
645.1781512699
 20
-450.205798294
 10
648.1302498411
 20
-452.0641031007
 10
651.2583150657
 20
-453.6146195701
 10
654.5515638546
 20
-454.8520027507
 10
657.9986436971
 20
-455.7719871264
 10
661.5876717949
 20
-456.3714013205
 10
665.3062760246
 20
-456.6481790281
 10
669.1416375871
 20
-456.601366139
 10
673.0805351965
 20
-456.231124027
 10
677.1093906569
 20
-455.5387289933
 10
681.2143156687
 20
-454.5265678671
 10
685.3811597051
 20
-453.1981297775
 10
689.5955587915
 20
-451.5579941257
 10
693.8429850211
 20
-449.611814799
 10
698.108796636
 20
-447.366300681
 10
702.3782884996
 20
-444.8291925238
 10
706.6367427891
 20
-442.0092362648
 10
710.8694797304
 20
-438.9161528776
 10
715.0619082024
 20
-435.5606048612
 10
719.1995760356
 20
-431.9541594849
 10
723.2682198318
 20
-428.109248913
 10
727.2538141329
 20
-424.0391273487
 10
731.1426197699
 20
-419.7578253442
 10
734.921231224
 20
-415.2801014345
 10
738.5766228388
 20
-410.6213912615
 10
742.0961937221
 20
-405.7977543643
 10
745.467811184
 20
-400.8258188185
 10
748.6798525605
 20
-395.7227239159
 10
751.7212452797
 20
-390.5060610819
 10
754.5815050309
 20
-385.1938132338
 10
757.250771906
 20
-379.8042927907
 10
759.7198443893
 20
-374.3560785458
 10
761.9802110763
 20
-368.8679516224
 10
764.0240800149
 20
-363.358830731
 10
765.8444055654
 20
-357.8477069524
 10
767.4349126885
 20
-352.3535782721
 10
768.7901185766
 20
-346.8953840898
 10
769.9053515545
 20
-341.4919399315
 10
770.7767671828
 20
-336.1618725887
 10
771.4013615115
 20
-330.9235559077
 10
771.7769814345
 20
-325.7950474512
 10
771.902332112
 20
-320.7940262504
  0
LWPOLYLINE
  5
EE
330
1F
100
AcDbEntity
  8
0
  6
Continuous
 62
     7
370
    25
100
AcDbPolyline
 90
       15
 70
   128
 43
0.0
 10
848.2698644802
 20
-364.8800642888
 10
848.1445138026
 20
-360.0237698997
 10
847.7688938796
 20
-355.3289429751
 10
847.144299551
 20
-350.8117675561
 10
846.2728839226
 20
-346.487815282
 10
845.1576509448
 20
-342.3719917121
 10
843.8024450566
 20
-338.478484943
 10
842.2119379335
 20
-334.820716699
 10
840.391612383
 20
-331.411296065
 10
838.3477434445
 20
-328.2619760202
 10
836.0873767574
 20
-325.3836129233
 10
833.6183042742
 20
-322.7861290881
 10
830.949037399
 20
-320.4784785795
 10
828.0887776479
 20
-318.4686163469
 10
826.964752861
 20
-317.7907259434
  0
LWPOLYLINE
  5
EF
330
1F
100
AcDbEntity
  8
0
  6
Continuous
 62
     7
370
    25
100
AcDbPolyline
 90
       42
 70
   128
 43
0.0
 10
724.1231112093
 20
-495.9369769351
 10
724.4977822093
 20
-496.1501411391
 10
727.6258474338
 20
-497.7006576085
 10
730.9190962228
 20
-498.9380407891
 10
734.3661760653
 20
-499.8580251649
 10
737.9552041631
 20
-500.457439359
 10
741.6738083928
 20
-500.7342170665
 10
745.5091699553
 20
-500.6874041774
 10
749.4480675647
 20
-500.3171620654
 10
753.476923025
 20
-499.6247670317
 10
757.5818480368
 20
-498.6126059055
 10
761.7486920732
 20
-497.2841678159
 10
765.9630911596
 20
-495.6440321641
 10
770.2105173893
 20
-493.6978528375
 10
774.4763290041
 20
-491.4523387194
 10
778.7458208677
 20
-488.9152305622
 10
783.0042751573
 20
-486.0952743032
 10
787.2370120986
 20
-483.002190916
 10
791.4294405705
 20
-479.6466428996
 10
795.5671084037
 20
-476.0401975233
 10
799.6357521999
 20
-472.1952869514
 10
803.6213465011
 20
-468.1251653871
 10
807.5101521381
 20
-463.8438633826
 10
811.2887635922
 20
-459.3661394729
 10
814.944155207
 20
-454.7074292999
 10
818.4637260902
 20
-449.8837924027
 10
821.8353435521
 20
-444.9118568569
 10
825.0473849287
 20
-439.8087619543
 10
828.0887776479
 20
-434.5920991203
 10
830.949037399
 20
-429.2798512723
 10
833.6183042742
 20
-423.8903308291
 10
836.0873767574
 20
-418.4421165843
 10
838.3477434445
 20
-412.9539896609
 10
840.391612383
 20
-407.4448687694
 10
842.2119379335
 20
-401.9337449908
 10
843.8024450566
 20
-396.4396163105
 10
845.1576509448
 20
-390.9814221282
 10
846.2728839226
 20
-385.5779779699
 10
847.144299551
 20
-380.2479106271
 10
847.7688938796
 20
-375.0095939461
 10
848.1445138026
 20
-369.8810854896
 10
848.2698644802
 20
-364.8800642888
  0
LWPOLYLINE
  5
F0
330
1F
100
AcDbEntity
  8
0
  6
Continuous
 62
     7
370
    25
100
AcDbPolyline
 90
        9
 70
   128
 43
0.0
 10
873.1246678389
 20
-397.8833622092
 10
872.9983434174
 20
-393.5931748346
 10
872.6199343484
 20
-389.4679995508
 10
871.9911306987
 20
-385.526260392
 10
871.1147408581
 20
-381.7855621222
 10
869.9946789962
 20
-378.2626116079
 10
868.6359475814
 20
-374.9731432014
 10
867.0446150378
 20
-371.931848467
 10
866.1141504274
 20
-370.4326645714
  0
LWPOLYLINE
  5
F1
330
1F
100
AcDbEntity
  8
0
  6
Continuous
 62
     7
370
    25
100
AcDbPolyline
 90
       33
 70
   128
 43
0.0
 10
789.2877774748
 20
-503.5142655551
 10
789.3703159034
 20
-503.5189529242
 10
792.7444593479
 20
-503.5400089583
 10
796.2249514732
 20
-503.2350278321
 10
799.7962475564
 20
-502.6053716652
 10
803.4423973224
 20
-501.653852655
 10
807.1471161811
 20
-500.3847205163
 10
810.8938579588
 20
-498.8036435014
 10
814.6658887971
 20
-496.917683084
 10
818.4463618908
 20
-494.7352624212
 10
822.2183927292
 20
-492.2661287334
 10
825.9651345069
 20
-489.5213097711
 10
829.6698533655
 20
-486.513064562
 10
833.3160031315
 20
-483.2548286596
 10
836.8872992147
 20
-479.7611541363
 10
840.36779134
 20
-476.0476445907
 10
843.7419347845
 20
-472.1308854579
 10
846.9946598047
 20
-468.0283699349
 10
850.1114389408
 20
-463.758420852
 10
853.0783519008
 20
-459.3401088383
 10
855.882147731
 20
-454.7931671478
 10
858.5103039988
 20
-450.137903526
 10
860.9510827201
 20
-445.3951095102
 10
863.1935827847
 20
-440.5859675698
 10
865.227788643
 20
-435.7319565002
 10
867.0446150378
 20
-430.8547554932
 10
868.6359475814
 20
-425.9761473124
 10
869.9946789962
 20
-421.1179210062
 10
871.1147408581
 20
-416.3017745927
 10
871.9911306987
 20
-411.5492181509
 10
872.6199343484
 20
-406.8814777515
 10
872.9983434174
 20
-402.3194006564
 10
873.1246678389
 20
-397.8833622092
  0
LWPOLYLINE
  5
F2
330
1F
100
AcDbEntity
  8
0
  6
Continuous
 62
     7
370
    25
100
AcDbPolyline
 90
       13
 70
   128
 43
0.0
 10
945.9566663011
 20
-439.9283799681
 10
945.8303418796
 20
-435.6381925935
 10
945.4519328106
 20
-431.5130173097
 10
944.8231291609
 20
-427.5712781509
 10
943.9467393203
 20
-423.8305798811
 10
942.8266774584
 20
-420.3076293668
 10
941.4679460436
 20
-417.0181609603
 10
939.8766135
 20
-413.9768662259
 10
938.0597871053
 20
-411.1973283243
 10
936.0255812469
 20
-408.6919613464
 10
933.7830811823
 20
-406.4719548694
 10
931.342302461
 20
-404.5472239811
 10
929.3848731116
 20
-403.3007954506
  0
LWPOLYLINE
  5
F3
330
1F
100
AcDbEntity
  8
0
  6
Continuous
 62
     7
370
    25
100
AcDbPolyline
 90
       37
 70
   128
 43
0.0
 10
849.3913745007
 20
-541.8686134315
 10
850.0621014191
 20
-542.2430438852
 10
852.8658972494
 20
-543.5527918156
 10
855.8328102093
 20
-544.5455790401
 10
858.9495893455
 20
-545.2169715298
 10
862.2023143656
 20
-545.563970683
 10
865.5764578102
 20
-545.5850267172
 10
869.0569499354
 20
-545.2800455909
 10
872.6282460186
 20
-544.6503894241
 10
876.2743957846
 20
-543.6988704139
 10
879.9791146433
 20
-542.4297382752
 10
883.725856421
 20
-540.8486612603
 10
887.4978872594
 20
-538.9627008429
 10
891.278360353
 20
-536.78028018
 10
895.0503911914
 20
-534.3111464922
 10
898.7971329691
 20
-531.5663275299
 10
902.5018518278
 20
-528.5580823209
 10
906.1480015937
 20
-525.2998464185
 10
909.7192976769
 20
-521.8061718952
 10
913.1997898022
 20
-518.0926623496
 10
916.5739332467
 20
-514.1759032168
 10
919.8266582669
 20
-510.0733876937
 10
922.943437403
 20
-505.8034386108
 10
925.910350363
 20
-501.3851265971
 10
928.7141461932
 20
-496.8381849067
 10
931.342302461
 20
-492.1829212848
 10
933.7830811823
 20
-487.440127269
 10
936.0255812469
 20
-482.6309853287
 10
938.0597871053
 20
-477.7769742591
 10
939.8766135
 20
-472.8997732521
 10
941.4679460436
 20
-468.0211650712
 10
942.8266774584
 20
-463.1629387651
 10
943.9467393203
 20
-458.3467923515
 10
944.8231291609
 20
-453.5942359097
 10
945.4519328106
 20
-448.9264955104
 10
945.8303418796
 20
-444.3644184153
 10
945.9566663011
 20
-439.9283799681
  0
ENDSEC
  0
SECTION
  2
OBJECTS
  0
DICTIONARY
  5
C
330
0
100
AcDbDictionary
281
     1
  3
ACAD_GROUP
350
D
  3
ACAD_LAYOUT
350
1A
  3
ACAD_MLINESTYLE
350
17
  3
ACAD_PLOTSETTINGS
350
19
  3
ACAD_PLOTSTYLENAME
350
E
  3
ACAD_SCALELIST
350
47
  3
DWGPROPS
350
F4
  0
DICTIONARY
  5
D
102
{ACAD_REACTORS
330
C
102
}
330
C
100
AcDbDictionary
281
     1
  0
DICTIONARY
  5
1A
102
{ACAD_REACTORS
330
C
102
}
330
C
100
AcDbDictionary
281
     1
  3
Layout1
350
1E
  3
Layout2
350
26
  3
Model
350
22
  0
DICTIONARY
  5
17
102
{ACAD_REACTORS
330
C
102
}
330
C
100
AcDbDictionary
281
     1
  3
Standard
350
18
  0
DICTIONARY
  5
19
102
{ACAD_REACTORS
330
C
102
}
330
C
100
AcDbDictionary
281
     1
  0
ACDBDICTIONARYWDFLT
  5
E
102
{ACAD_REACTORS
330
C
102
}
330
C
100
AcDbDictionary
281
     1
  3
Normal
350
F
100
AcDbDictionaryWithDefault
340
F
  0
DICTIONARY
  5
47
102
{ACAD_REACTORS
330
C
102
}
330
C
100
AcDbDictionary
281
     1
  3
A0
350
48
  3
A1
350
49
  3
A2
350
4A
  3
A3
350
4B
  3
A4
350
4C
  3
A5
350
4D
  3
A6
350
4E
  3
A7
350
4F
  3
A8
350
50
  3
A9
350
51
  3
B0
350
52
  3
B1
350
53
  3
B2
350
54
  3
B3
350
55
  3
B4
350
56
  3
B5
350
57
  3
B6
350
58
  3
B7
350
59
  3
B8
350
5A
  3
B9
350
5B
  3
C0
350
5C
  3
C1
350
5D
  3
C2
350
5E
  3
C3
350
5F
  3
C4
350
60
  3
C5
350
61
  3
C6
350
62
  3
C7
350
63
  3
C8
350
64
  3
C9
350
65
  3
D0
350
66
  3
D1
350
67
  3
D2
350
68
  0
XRECORD
  5
F4
102
{ACAD_REACTORS
330
C
102
}
330
C
100
AcDbXrecord
280
     1
  1
DWGPROPS COOKIE
  2

  3

  4

  6

  7

  8
b.kav
  9

300
=
301
=
302
=
303
=
304
=
305
=
306
=
307
=
308
=
309
=
 40
0.0
 41
2459935.584702916
 42
2459935.584703102
  1

 90
        0
  0
LAYOUT
  5
1E
102
{ACAD_REACTORS
330
1A
102
}
330
1A
100
AcDbPlotSettings
  1

  2
none_device
  4

  6

 40
0.0
 41
0.0
 42
0.0
 43
0.0
 44
0.0
 45
0.0
 46
0.0
 47
0.0
 48
0.0
 49
0.0
140
0.0
141
0.0
142
1.0
143
1.0
 70
   688
 72
     1
 73
     0
 74
     5
  7

 75
    16
147
1.0
148
0.0
149
0.0
100
AcDbLayout
  1
Layout1
 70
     1
 71
     1
 10
0.0
 20
0.0
 11
420.0
 21
297.0
 12
0.0
 22
0.0
 32
0.0
 14
1.0000000000E+20
 24
1.0000000000E+20
 34
1.0000000000E+20
 15
-1.0000000000E+20
 25
-1.0000000000E+20
 35
-1.0000000000E+20
146
0.0
 13
0.0
 23
0.0
 33
0.0
 16
1.0
 26
0.0
 36
0.0
 17
0.0
 27
1.0
 37
0.0
 76
     0
330
1B
  0
LAYOUT
  5
26
102
{ACAD_REACTORS
330
1A
102
}
330
1A
100
AcDbPlotSettings
  1

  2
none_device
  4

  6

 40
0.0
 41
0.0
 42
0.0
 43
0.0
 44
0.0
 45
0.0
 46
0.0
 47
0.0
 48
0.0
 49
0.0
140
0.0
141
0.0
142
1.0
143
1.0
 70
   688
 72
     1
 73
     0
 74
     5
  7

 75
    16
147
1.0
148
0.0
149
0.0
100
AcDbLayout
  1
Layout2
 70
     1
 71
     2
 10
0.0
 20
0.0
 11
0.0
 21
0.0
 12
0.0
 22
0.0
 32
0.0
 14
0.0
 24
0.0
 34
0.0
 15
0.0
 25
0.0
 35
0.0
146
0.0
 13
0.0
 23
0.0
 33
0.0
 16
1.0
 26
0.0
 36
0.0
 17
0.0
 27
1.0
 37
0.0
 76
     0
330
23
  0
LAYOUT
  5
22
102
{ACAD_REACTORS
330
1A
102
}
330
1A
100
AcDbPlotSettings
  1

  2
none_device
  4
Letter_(8.50_x_11.00_Inches)
  6

 40
6.35
 41
6.35
 42
6.35000508
 43
6.35000508
 44
215.9
 45
279.4
 46
0.0
 47
0.0
 48
0.0
 49
0.0
140
0.0
141
0.0
142
1.0
143
1.0
 70
  1712
 72
     1
 73
     0
 74
     0
  7

 75
     0
147
1.0
148
0.0
149
0.0
100
AcDbLayout
  1
Model
 70
     1
 71
     0
 10
0.0
 20
0.0
 11
279.4
 21
215.9
 12
0.0
 22
0.0
 32
0.0
 14
0.0
 24
0.0
 34
0.0
 15
279.4
 25
215.9
 35
0.0
146
0.0
 13
0.0
 23
0.0
 33
0.0
 16
1.0
 26
0.0
 36
0.0
 17
0.0
 27
1.0
 37
0.0
 76
     0
330
1F
331
29
  0
MLINESTYLE
  5
18
102
{ACAD_REACTORS
330
17
102
}
330
17
100
AcDbMlineStyle
  2
Standard
 70
     0
  3

 62
   256
 51
90.0
 52
90.0
 71
     2
 49
0.5
 62
   256
  6
BYLAYER
 49
-0.5
 62
   256
  6
BYLAYER
  0
ACDBPLACEHOLDER
  5
F
102
{ACAD_REACTORS
330
E
102
}
330
E
  0
SCALE
  5
48
102
{ACAD_REACTORS
330
47
102
}
330
47
100
AcDbScale
 70
     0
300
1:1
140
1.0
141
1.0
290
     1
  0
SCALE
  5
49
102
{ACAD_REACTORS
330
47
102
}
330
47
100
AcDbScale
 70
     0
300
1:2
140
1.0
141
2.0
290
     0
  0
SCALE
  5
4A
102
{ACAD_REACTORS
330
47
102
}
330
47
100
AcDbScale
 70
     0
300
1:4
140
1.0
141
4.0
290
     0
  0
SCALE
  5
4B
102
{ACAD_REACTORS
330
47
102
}
330
47
100
AcDbScale
 70
     0
300
1:5
140
1.0
141
5.0
290
     0
  0
SCALE
  5
4C
102
{ACAD_REACTORS
330
47
102
}
330
47
100
AcDbScale
 70
     0
300
1:8
140
1.0
141
8.0
290
     0
  0
SCALE
  5
4D
102
{ACAD_REACTORS
330
47
102
}
330
47
100
AcDbScale
 70
     0
300
1:10
140
1.0
141
10.0
290
     0
  0
SCALE
  5
4E
102
{ACAD_REACTORS
330
47
102
}
330
47
100
AcDbScale
 70
     0
300
1:16
140
1.0
141
16.0
290
     0
  0
SCALE
  5
4F
102
{ACAD_REACTORS
330
47
102
}
330
47
100
AcDbScale
 70
     0
300
1:20
140
1.0
141
20.0
290
     0
  0
SCALE
  5
50
102
{ACAD_REACTORS
330
47
102
}
330
47
100
AcDbScale
 70
     0
300
1:30
140
1.0
141
30.0
290
     0
  0
SCALE
  5
51
102
{ACAD_REACTORS
330
47
102
}
330
47
100
AcDbScale
 70
     0
300
1:40
140
1.0
141
40.0
290
     0
  0
SCALE
  5
52
102
{ACAD_REACTORS
330
47
102
}
330
47
100
AcDbScale
 70
     0
300
1:50
140
1.0
141
50.0
290
     0
  0
SCALE
  5
53
102
{ACAD_REACTORS
330
47
102
}
330
47
100
AcDbScale
 70
     0
300
1:100
140
1.0
141
100.0
290
     0
  0
SCALE
  5
54
102
{ACAD_REACTORS
330
47
102
}
330
47
100
AcDbScale
 70
     0
300
2:1
140
2.0
141
1.0
290
     0
  0
SCALE
  5
55
102
{ACAD_REACTORS
330
47
102
}
330
47
100
AcDbScale
 70
     0
300
4:1
140
4.0
141
1.0
290
     0
  0
SCALE
  5
56
102
{ACAD_REACTORS
330
47
102
}
330
47
100
AcDbScale
 70
     0
300
8:1
140
8.0
141
1.0
290
     0
  0
SCALE
  5
57
102
{ACAD_REACTORS
330
47
102
}
330
47
100
AcDbScale
 70
     0
300
10:1
140
10.0
141
1.0
290
     0
  0
SCALE
  5
58
102
{ACAD_REACTORS
330
47
102
}
330
47
100
AcDbScale
 70
     0
300
100:1
140
100.0
141
1.0
290
     0
  0
SCALE
  5
59
102
{ACAD_REACTORS
330
47
102
}
330
47
100
AcDbScale
 70
     0
300
1/128" = 1'-0"
140
0.0078125
141
12.0
290
     0
  0
SCALE
  5
5A
102
{ACAD_REACTORS
330
47
102
}
330
47
100
AcDbScale
 70
     0
300
1/64" = 1'-0"
140
0.015625
141
12.0
290
     0
  0
SCALE
  5
5B
102
{ACAD_REACTORS
330
47
102
}
330
47
100
AcDbScale
 70
     0
300
1/32" = 1'-0"
140
0.03125
141
12.0
290
     0
  0
SCALE
  5
5C
102
{ACAD_REACTORS
330
47
102
}
330
47
100
AcDbScale
 70
     0
300
1/16" = 1'-0"
140
0.0625
141
12.0
290
     0
  0
SCALE
  5
5D
102
{ACAD_REACTORS
330
47
102
}
330
47
100
AcDbScale
 70
     0
300
3/32" = 1'-0"
140
0.09375
141
12.0
290
     0
  0
SCALE
  5
5E
102
{ACAD_REACTORS
330
47
102
}
330
47
100
AcDbScale
 70
     0
300
1/8" = 1'-0"
140
0.125
141
12.0
290
     0
  0
SCALE
  5
5F
102
{ACAD_REACTORS
330
47
102
}
330
47
100
AcDbScale
 70
     0
300
3/16" = 1'-0"
140
0.1875
141
12.0
290
     0
  0
SCALE
  5
60
102
{ACAD_REACTORS
330
47
102
}
330
47
100
AcDbScale
 70
     0
300
1/4" = 1'-0"
140
0.25
141
12.0
290
     0
  0
SCALE
  5
61
102
{ACAD_REACTORS
330
47
102
}
330
47
100
AcDbScale
 70
     0
300
3/8" = 1'-0"
140
0.375
141
12.0
290
     0
  0
SCALE
  5
62
102
{ACAD_REACTORS
330
47
102
}
330
47
100
AcDbScale
 70
     0
300
1/2" = 1'-0"
140
0.5
141
12.0
290
     0
  0
SCALE
  5
63
102
{ACAD_REACTORS
330
47
102
}
330
47
100
AcDbScale
 70
     0
300
3/4" = 1'-0"
140
0.75
141
12.0
290
     0
  0
SCALE
  5
64
102
{ACAD_REACTORS
330
47
102
}
330
47
100
AcDbScale
 70
     0
300
1" = 1'-0"
140
1.0
141
12.0
290
     0
  0
SCALE
  5
65
102
{ACAD_REACTORS
330
47
102
}
330
47
100
AcDbScale
 70
     0
300
1-1/2" = 1'-0"
140
1.5
141
12.0
290
     0
  0
SCALE
  5
66
102
{ACAD_REACTORS
330
47
102
}
330
47
100
AcDbScale
 70
     0
300
3" = 1'-0"
140
3.0
141
12.0
290
     0
  0
SCALE
  5
67
102
{ACAD_REACTORS
330
47
102
}
330
47
100
AcDbScale
 70
     0
300
6" = 1'-0"
140
6.0
141
12.0
290
     0
  0
SCALE
  5
68
102
{ACAD_REACTORS
330
47
102
}
330
47
100
AcDbScale
 70
     0
300
1'-0" = 1'-0"
140
12.0
141
12.0
290
     0
  0
ENDSEC
  0
EOF
